  0
SECTION
  2
HEADER
  9
$ACADVER
  1
AC1015
  9
$ACADMAINTVER
 70
     6
  9
$DWGCODEPAGE
  3
ANSI_1254
  9
$INSBASE
 10
0.0
 20
0.0
 30
0.0
  9
$EXTMIN
 10
0.0
 20
0.0
 30
0.0
  9
$EXTMAX
 10
279.4
 20
215.9
 30
0.0
  9
$LIMMIN
 10
0.0
 20
0.0
  9
$LIMMAX
 10
279.4
 20
215.9
  9
$ORTHOMODE
 70
     0
  9
$REGENMODE
 70
     1
  9
$FILLMODE
 70
     1
  9
$QTEXTMODE
 70
     0
  9
$MIRRTEXT
 70
     1
  9
$LTSCALE
 40
1.0
  9
$ATTMODE
 70
     1
  9
$TEXTSIZE
 40
3.5
  9
$TRACEWID
 40
1.0
  9
$TEXTSTYLE
  7
Standard
  9
$CLAYER
  8
0
  9
$CELTYPE
  6
ByLayer
  9
$CECOLOR
 62
   256
  9
$CELTSCALE
 40
1.0
  9
$DISPSILH
 70
     0
  9
$DIMSCALE
 40
1.0
  9
$DIMASZ
 40
3.5
  9
$DIMEXO
 40
1.0
  9
$DIMDLI
 40
3.75
  9
$DIMRND
 40
0.0
  9
$DIMDLE
 40
0.0
  9
$DIMEXE
 40
1.0
  9
$DIMTP
 40
0.0
  9
$DIMTM
 40
0.0
  9
$DIMTXT
 40
3.5
  9
$DIMCEN
 40
2.5
  9
$DIMTSZ
 40
0.0
  9
$DIMTOL
 70
     0
  9
$DIMLIM
 70
     0
  9
$DIMTIH
 70
     1
  9
$DIMTOH
 70
     1
  9
$DIMSE1
 70
     0
  9
$DIMSE2
 70
     0
  9
$DIMTAD
 70
     1
  9
$DIMZIN
 70
     0
  9
$DIMBLK
  1

  9
$DIMASO
 70
     1
  9
$DIMSHO
 70
     1
  9
$DIMPOST
  1

  9
$DIMAPOST
  1

  9
$DIMALT
 70
     0
  9
$DIMALTD
 70
     3
  9
$DIMALTF
 40
0.0393700787
  9
$DIMLFAC
 40
1.0
  9
$DIMTOFL
 70
     1
  9
$DIMTVP
 40
0.0
  9
$DIMTIX
 70
     0
  9
$DIMSOXD
 70
     0
  9
$DIMSAH
 70
     0
  9
$DIMBLK1
  1

  9
$DIMBLK2
  1

  9
$DIMSTYLE
  2
ISO-25
  9
$DIMCLRD
 70
     0
  9
$DIMCLRE
 70
     0
  9
$DIMCLRT
 70
     0
  9
$DIMTFAC
 40
1.0
  9
$DIMGAP
 40
1.524
  9
$DIMJUST
 70
     0
  9
$DIMSD1
 70
     0
  9
$DIMSD2
 70
     0
  9
$DIMTOLJ
 70
     0
  9
$DIMTZIN
 70
     0
  9
$DIMALTZ
 70
     0
  9
$DIMALTTZ
 70
     0
  9
$DIMUPT
 70
     0
  9
$DIMDEC
 70
     2
  9
$DIMTDEC
 70
     2
  9
$DIMALTU
 70
     2
  9
$DIMALTTD
 70
     3
  9
$DIMTXSTY
  7
Standard
  9
$DIMAUNIT
 70
     0
  9
$DIMADEC
 70
     2
  9
$DIMALTRND
 40
0.0
  9
$DIMAZIN
 70
     0
  9
$DIMDSEP
 70
    44
  9
$DIMATFIT
 70
     3
  9
$DIMFRAC
 70
     0
  9
$DIMLDRBLK
  1

  9
$DIMLUNIT
 70
     2
  9
$DIMLWD
 70
    -2
  9
$DIMLWE
 70
    -2
  9
$DIMTMOVE
 70
     0
  9
$LUNITS
 70
     2
  9
$LUPREC
 70
     2
  9
$SKETCHINC
 40
1.0
  9
$FILLETRAD
 40
10.0
  9
$AUNITS
 70
     0
  9
$AUPREC
 70
     2
  9
$MENU
  1
.
  9
$ELEVATION
 40
0.0
  9
$PELEVATION
 40
0.0
  9
$THICKNESS
 40
0.0
  9
$LIMCHECK
 70
     0
  9
$CHAMFERA
 40
0.0
  9
$CHAMFERB
 40
0.0
  9
$CHAMFERC
 40
0.0
  9
$CHAMFERD
 40
0.0
  9
$SKPOLY
 70
     0
  9
$TDCREATE
 40
2458985.682323646
  9
$TDUCREATE
 40
2458985.557323646
  9
$TDUPDATE
 40
2458985.682323935
  9
$TDUUPDATE
 40
2458985.557323935
  9
$TDINDWG
 40
0.0000000116
  9
$TDUSRTIMER
 40
0.0000000116
  9
$USRTIMER
 70
     1
  9
$ANGBASE
 50
0.0
  9
$ANGDIR
 70
     0
  9
$PDMODE
 70
     0
  9
$PDSIZE
 40
-1.0
  9
$PLINEWID
 40
0.0
  9
$SPLFRAME
 70
     0
  9
$SPLINETYPE
 70
     6
  9
$SPLINESEGS
 70
     8
  9
$HANDSEED
  5
CB
  9
$SURFTAB1
 70
     6
  9
$SURFTAB2
 70
     6
  9
$SURFTYPE
 70
     6
  9
$SURFU
 70
     6
  9
$SURFV
 70
     6
  9
$UCSBASE
  2

  9
$UCSNAME
  2

  9
$UCSORG
 10
0.0
 20
0.0
 30
0.0
  9
$UCSXDIR
 10
1.0
 20
0.0
 30
0.0
  9
$UCSYDIR
 10
0.0
 20
1.0
 30
0.0
  9
$UCSORTHOREF
  2

  9
$UCSORTHOVIEW
 70
     0
  9
$UCSORGTOP
 10
0.0
 20
0.0
 30
0.0
  9
$UCSORGBOTTOM
 10
0.0
 20
0.0
 30
0.0
  9
$UCSORGLEFT
 10
0.0
 20
0.0
 30
0.0
  9
$UCSORGRIGHT
 10
0.0
 20
0.0
 30
0.0
  9
$UCSORGFRONT
 10
0.0
 20
0.0
 30
0.0
  9
$UCSORGBACK
 10
0.0
 20
0.0
 30
0.0
  9
$PUCSBASE
  2

  9
$PUCSNAME
  2

  9
$PUCSORG
 10
0.0
 20
0.0
 30
0.0
  9
$PUCSXDIR
 10
1.0
 20
0.0
 30
0.0
  9
$PUCSYDIR
 10
0.0
 20
1.0
 30
0.0
  9
$PUCSORTHOREF
  2

  9
$PUCSORTHOVIEW
 70
     0
  9
$PUCSORGTOP
 10
0.0
 20
0.0
 30
0.0
  9
$PUCSORGBOTTOM
 10
0.0
 20
0.0
 30
0.0
  9
$PUCSORGLEFT
 10
0.0
 20
0.0
 30
0.0
  9
$PUCSORGRIGHT
 10
0.0
 20
0.0
 30
0.0
  9
$PUCSORGFRONT
 10
0.0
 20
0.0
 30
0.0
  9
$PUCSORGBACK
 10
0.0
 20
0.0
 30
0.0
  9
$USERI1
 70
     0
  9
$USERI2
 70
     0
  9
$USERI3
 70
     0
  9
$USERI4
 70
     0
  9
$USERI5
 70
     0
  9
$USERR1
 40
0.0
  9
$USERR2
 40
0.0
  9
$USERR3
 40
0.0
  9
$USERR4
 40
0.0
  9
$USERR5
 40
0.0
  9
$WORLDVIEW
 70
     1
  9
$SHADEDGE
 70
     3
  9
$SHADEDIF
 70
    70
  9
$TILEMODE
 70
     1
  9
$MAXACTVP
 70
    64
  9
$PINSBASE
 10
0.0
 20
0.0
 30
0.0
  9
$PLIMCHECK
 70
     0
  9
$PEXTMIN
 10
1.0000000000E+20
 20
1.0000000000E+20
 30
1.0000000000E+20
  9
$PEXTMAX
 10
-1.0000000000E+20
 20
-1.0000000000E+20
 30
-1.0000000000E+20
  9
$PLIMMIN
 10
0.0
 20
0.0
  9
$PLIMMAX
 10
420.0
 20
297.0
  9
$UNITMODE
 70
     0
  9
$VISRETAIN
 70
     1
  9
$PLINEGEN
 70
     0
  9
$PSLTSCALE
 70
     1
  9
$TREEDEPTH
 70
  3020
  9
$CMLSTYLE
  2
Standard
  9
$CMLJUST
 70
     0
  9
$CMLSCALE
 40
20.0
  9
$PROXYGRAPHICS
 70
     1
  9
$MEASUREMENT
 70
     1
  9
$CELWEIGHT
370
    -1
  9
$ENDCAPS
280
     0
  9
$JOINSTYLE
280
     0
  9
$LWDISPLAY
290
     1
  9
$INSUNITS
 70
     4
  9
$HYPERLINKBASE
  1

  9
$STYLESHEET
  1

  9
$XEDIT
290
     1
  9
$CEPSNTYPE
380
     0
  9
$PSTYLEMODE
290
     1
  9
$FINGERPRINTGUID
  2
{d8b7a45d-14b9-4430-b15c-d52d1376dca3}
  9
$VERSIONGUID
  2
{FAEB1C32-E019-11D5-929B-00C0DF256EC4}
  9
$EXTNAMES
290
     1
  9
$PSVPSCALE
 40
0.0
  9
$OLESTARTUP
290
     0
  0
ENDSEC
  0
SECTION
  2
CLASSES
  0
CLASS
  1
ACDBDICTIONARYWDFLT
  2
AcDbDictionaryWithDefault
  3
ObjectDBX Classes
 90
        0
280
     0
281
     0
  0
CLASS
  1
VISUALSTYLE
  2
AcDbVisualStyle
  3
ObjectDBX Classes
 90
     4095
280
     0
281
     0
  0
CLASS
  1
MATERIAL
  2
AcDbMaterial
  3
ObjectDBX Classes
 90
     1153
280
     0
281
     0
  0
CLASS
  1
SCALE
  2
AcDbScale
  3
ObjectDBX Classes
 90
     1153
280
     0
281
     0
  0
CLASS
  1
TABLESTYLE
  2
AcDbTableStyle
  3
ObjectDBX Classes
 90
     4095
280
     0
281
     0
  0
CLASS
  1
MLEADERSTYLE
  2
AcDbMLeaderStyle
  3
ACDB_MLEADERSTYLE_CLASS
 90
     4095
280
     0
281
     0
  0
CLASS
  1
SUN
  2
AcDbSun
  3
SCENEOE
 90
     1153
280
     0
281
     0
  0
CLASS
  1
ACDBPLACEHOLDER
  2
AcDbPlaceHolder
  3
ObjectDBX Classes
 90
        0
280
     0
281
     0
  0
CLASS
  1
LAYOUT
  2
AcDbLayout
  3
ObjectDBX Classes
 90
        0
280
     0
281
     0
  0
ENDSEC
  0
SECTION
  2
TABLES
  0
TABLE
  2
VPORT
  5
8
330
0
100
AcDbSymbolTable
 70
     1
  0
VPORT
  5
29
330
8
100
AcDbSymbolTableRecord
100
AcDbViewportTableRecord
  2
*Active
 70
     0
 10
0.0
 20
0.0
 11
1.0
 21
1.0
 12
139.7
 22
107.95
 13
0.0
 23
0.0
 14
10.0
 24
10.0
 15
10.0
 25
10.0
 16
0.0
 26
0.0
 36
1.0
 17
0.0
 27
0.0
 37
0.0
 40
215.9
 41
1.2941176471
 42
50.0
 43
0.0
 44
0.0
 50
0.0
 51
0.0
 71
     0
 72
  2000
 73
     1
 74
     3
 75
     0
 76
     0
 77
     0
 78
     0
281
     0
 65
     1
110
0.0
120
0.0
130
0.0
111
1.0
121
0.0
131
0.0
112
0.0
122
1.0
132
0.0
 79
     0
146
0.0
  0
ENDTAB
  0
TABLE
  2
LTYPE
  5
5
330
0
100
AcDbSymbolTable
 70
     6
  0
LTYPE
  5
14
330
5
100
AcDbSymbolTableRecord
100
AcDbLinetypeTableRecord
  2
ByBlock
 70
     0
  3

 72
    65
 73
     0
 40
0.0
  0
LTYPE
  5
15
330
5
100
AcDbSymbolTableRecord
100
AcDbLinetypeTableRecord
  2
ByLayer
 70
     0
  3

 72
    65
 73
     0
 40
0.0
  0
LTYPE
  5
16
330
5
100
AcDbSymbolTableRecord
100
AcDbLinetypeTableRecord
  2
Continuous
 70
     0
  3
Solid line
 72
    65
 73
     0
 40
0.0
  0
LTYPE
  5
6E
330
5
100
AcDbSymbolTableRecord
100
AcDbLinetypeTableRecord
  2
HIDDEN
 70
     0
  3
Hidden __ __ __ __ __ __ __ __ __ __ __ __ __ __
 72
    65
 73
     2
 40
1.905
 49
1.27
 74
     0
 49
-0.635
 74
     0
  0
LTYPE
  5
6F
330
5
100
AcDbSymbolTableRecord
100
AcDbLinetypeTableRecord
  2
PHANTOM
 70
     0
  3
Phantom ______  __  __  ______  __  __  ______
 72
    65
 73
     6
 40
12.7
 49
6.35
 74
     0
 49
-1.27
 74
     0
 49
1.27
 74
     0
 49
-1.27
 74
     0
 49
1.27
 74
     0
 49
-1.27
 74
     0
  0
LTYPE
  5
70
330
5
100
AcDbSymbolTableRecord
100
AcDbLinetypeTableRecord
  2
CENTER
 70
     0
  3
Center ____ _ ____ _ ____ _ ____ _ ____ _ ____
 72
    65
 73
     4
 40
10.16
 49
6.35
 74
     0
 49
-1.27
 74
     0
 49
1.27
 74
     0
 49
-1.27
 74
     0
  0
LTYPE
  5
71
330
5
100
AcDbSymbolTableRecord
100
AcDbLinetypeTableRecord
  2
CENTERX2
 70
     0
  3
Center (2x) ________  __  ________  __  _____
 72
    65
 73
     4
 40
20.32
 49
12.7
 74
     0
 49
-2.54
 74
     0
 49
2.54
 74
     0
 49
-2.54
 74
     0
  0
LTYPE
  5
72
330
5
100
AcDbSymbolTableRecord
100
AcDbLinetypeTableRecord
  2
DOT2
 70
     0
  3
Dot (.5x) ........................................
 72
    65
 73
     2
 40
0.635
 49
0.0
 74
     0
 49
-0.635
 74
     0
  0
ENDTAB
  0
TABLE
  2
LAYER
  5
2
330
0
100
AcDbSymbolTable
 70
    17
  0
LAYER
  5
10
330
2
100
AcDbSymbolTableRecord
100
AcDbLayerTableRecord
  2
0
 70
     0
 62
     7
  6
Continuous
370
    -3
390
F
  0
LAYER
  5
73
330
2
100
AcDbSymbolTableRecord
100
AcDbLayerTableRecord
  2
FORMAT
 70
     0
 62
     7
  6
Continuous
370
    -3
390
F
  0
LAYER
  5
74
330
2
100
AcDbSymbolTableRecord
100
AcDbLayerTableRecord
  2
YARDIMCI_GEOMETRI
 70
     0
 62
    -6
  6
Continuous
290
     0
370
    -3
390
F
  0
LAYER
  5
75
330
2
100
AcDbSymbolTableRecord
100
AcDbLayerTableRecord
  2
SAYFA_CERCEVESI
 70
     0
 62
     7
  6
Continuous
370
    25
390
F
  0
LAYER
  5
76
330
2
100
AcDbSymbolTableRecord
100
AcDbLayerTableRecord
  2
ANTET
 70
     0
 62
     7
  6
Continuous
370
    -3
390
F
  0
LAYER
  5
77
330
2
100
AcDbSymbolTableRecord
100
AcDbLayerTableRecord
  2
OLCU
 70
     0
 62
   150
  6
Continuous
370
    -3
390
F
  0
LAYER
  5
78
330
2
100
AcDbSymbolTableRecord
100
AcDbLayerTableRecord
  2
METIN
 70
     0
 62
    96
  6
Continuous
370
    -3
390
F
  0
LAYER
  5
79
330
2
100
AcDbSymbolTableRecord
100
AcDbLayerTableRecord
  2
BALON
 70
     0
 62
     5
  6
Continuous
370
    -3
390
F
  0
LAYER
  5
7A
330
2
100
AcDbSymbolTableRecord
100
AcDbLayerTableRecord
  2
VURGU
 70
     0
 62
     7
  6
Continuous
370
    -3
390
F
  0
LAYER
  5
7B
330
2
100
AcDbSymbolTableRecord
100
AcDbLayerTableRecord
  2
SILIK
 70
     0
 62
     7
  6
Continuous
370
    -3
390
F
  0
LAYER
  5
7C
330
2
100
AcDbSymbolTableRecord
100
AcDbLayerTableRecord
  2
MODEL
 70
     0
 62
     7
  6
Continuous
370
    -3
390
F
  0
LAYER
  5
7D
330
2
100
AcDbSymbolTableRecord
100
AcDbLayerTableRecord
  2
DETAYLANDıRMA
 70
     0
 62
   190
  6
Continuous
370
    -3
390
F
  0
LAYER
  5
7E
330
2
100
AcDbSymbolTableRecord
100
AcDbLayerTableRecord
  2
TOLERANS
 70
     0
 62
   230
  6
Continuous
370
    -3
390
F
  0
LAYER
  5
7F
330
2
100
AcDbSymbolTableRecord
100
AcDbLayerTableRecord
  2
MERKEZ_CIZGILERI
 70
     0
 62
    30
  6
Continuous
370
    -3
390
F
  0
LAYER
  5
80
330
2
100
AcDbSymbolTableRecord
100
AcDbLayerTableRecord
  2
KESIT-DETAY_CIZGILERI
 70
     0
 62
     7
  6
Continuous
370
    -3
390
F
  0
LAYER
  5
81
330
2
100
AcDbSymbolTableRecord
100
AcDbLayerTableRecord
  2
\U+041E\U+0421\U+0415\U+0412\U+042B\U+0415
 70
     0
 62
     7
  6
Continuous
370
    -3
390
F
  0
LAYER
  5
82
330
2
100
AcDbSymbolTableRecord
100
AcDbLayerTableRecord
  2
\U+0412\U+041E\U+0414\U+042F\U+041D\U+042B\U+0415_\U+0417\U+041D\U+0410\U+041A\U+0418
 70
     0
 62
    11
  6
Continuous
370
    -3
390
F
  0
ENDTAB
  0
TABLE
  2
STYLE
  5
3
330
0
100
AcDbSymbolTable
 70
     1
  0
STYLE
  5
11
330
3
100
AcDbSymbolTableRecord
100
AcDbTextStyleTableRecord
  2
Standard
 70
     0
 40
0.0
 41
1.0
 50
0.0
 71
     0
 42
3.5
  3
txt
  4

  0
ENDTAB
  0
TABLE
  2
VIEW
  5
6
330
0
100
AcDbSymbolTable
 70
     0
  0
ENDTAB
  0
TABLE
  2
UCS
  5
7
330
0
100
AcDbSymbolTable
 70
     0
  0
ENDTAB
  0
TABLE
  2
APPID
  5
9
330
0
100
AcDbSymbolTable
 70
     1
  0
APPID
  5
12
330
9
100
AcDbSymbolTableRecord
100
AcDbRegAppTableRecord
  2
ACAD
 70
     0
  0
ENDTAB
  0
TABLE
  2
DIMSTYLE
  5
A
330
0
100
AcDbSymbolTable
 70
     1
100
AcDbDimStyleTable
  0
DIMSTYLE
105
27
330
A
100
AcDbSymbolTableRecord
100
AcDbDimStyleTableRecord
  2
ISO-25
 70
     0
 41
2.5
 42
0.625
 43
3.75
 44
1.25
 73
     0
 74
     0
 77
     1
 78
     8
140
2.5
141
2.5
143
0.0393700787
147
0.625
171
     3
172
     1
178
     0
271
     2
272
     2
274
     3
278
    44
283
     0
284
     8
340
11
  0
ENDTAB
  0
TABLE
  2
BLOCK_RECORD
  5
1
330
0
100
AcDbSymbolTable
 70
     3
  0
BLOCK_RECORD
  5
1F
330
1
100
AcDbSymbolTableRecord
100
AcDbBlockTableRecord
  2
*Model_Space
340
22
  0
BLOCK_RECORD
  5
1B
330
1
100
AcDbSymbolTableRecord
100
AcDbBlockTableRecord
  2
*Paper_Space
340
1E
  0
BLOCK_RECORD
  5
23
330
1
100
AcDbSymbolTableRecord
100
AcDbBlockTableRecord
  2
*Paper_Space0
340
26
  0
BLOCK_RECORD
  5
88
330
1
100
AcDbSymbolTableRecord
100
AcDbBlockTableRecord
  2
SW_CENTERMARKSYMBOL_0
340
0
102
{BLKREFS
331
93
102
}
  0
BLOCK_RECORD
  5
B2
330
1
100
AcDbSymbolTableRecord
100
AcDbBlockTableRecord
  2
SW_CENTERMARKSYMBOL_1
340
0
102
{BLKREFS
331
BD
102
}
  0
ENDTAB
  0
ENDSEC
  0
SECTION
  2
BLOCKS
  0
BLOCK
  5
20
330
1F
100
AcDbEntity
  8
0
100
AcDbBlockBegin
  2
*Model_Space
 70
     0
 10
0.0
 20
0.0
 30
0.0
  3
*Model_Space
  1

  0
ENDBLK
  5
21
330
1F
100
AcDbEntity
  8
0
100
AcDbBlockEnd
  0
BLOCK
  5
1C
330
1B
100
AcDbEntity
 67
     1
  8
0
100
AcDbBlockBegin
  2
*Paper_Space
 70
     0
 10
0.0
 20
0.0
 30
0.0
  3
*Paper_Space
  1

  0
ENDBLK
  5
1D
330
1B
100
AcDbEntity
 67
     1
  8
0
100
AcDbBlockEnd
  0
BLOCK
  5
24
330
23
100
AcDbEntity
  8
0
100
AcDbBlockBegin
  2
*Paper_Space0
 70
     0
 10
0.0
 20
0.0
 30
0.0
  3
*Paper_Space0
  1

  0
ENDBLK
  5
25
330
23
100
AcDbEntity
  8
0
100
AcDbBlockEnd
  0
BLOCK
  5
89
330
88
100
AcDbEntity
  8
0
100
AcDbBlockBegin
  2
SW_CENTERMARKSYMBOL_0
 70
     0
 10
0.0
 20
0.0
 30
0.0
  3
SW_CENTERMARKSYMBOL_0
  1

  0
LINE
  5
8B
330
88
100
AcDbEntity
  8
FORMAT
 62
     0
100
AcDbLine
 10
0.0
 20
0.0
 30
0.0
 11
0.0
 21
2.5
 31
0.0
  0
LINE
  5
8C
330
88
100
AcDbEntity
  8
FORMAT
 62
     0
100
AcDbLine
 10
0.0
 20
0.0
 30
0.0
 11
-2.5
 21
0.0
 31
0.0
  0
LINE
  5
8D
330
88
100
AcDbEntity
  8
FORMAT
 62
     0
100
AcDbLine
 10
0.0
 20
0.0
 30
0.0
 11
0.0
 21
-2.5
 31
0.0
  0
LINE
  5
8E
330
88
100
AcDbEntity
  8
FORMAT
 62
     0
100
AcDbLine
 10
0.0
 20
0.0
 30
0.0
 11
2.5
 21
0.0
 31
0.0
  0
LINE
  5
8F
330
88
100
AcDbEntity
  8
FORMAT
 62
     0
100
AcDbLine
 10
0.0
 20
5.0
 30
0.0
 11
0.0
 21
57.5
 31
0.0
  0
LINE
  5
90
330
88
100
AcDbEntity
  8
FORMAT
 62
     0
100
AcDbLine
 10
-5.0
 20
0.0
 30
0.0
 11
-57.5
 21
0.0
 31
0.0
  0
LINE
  5
91
330
88
100
AcDbEntity
  8
FORMAT
 62
     0
100
AcDbLine
 10
0.0
 20
-5.0
 30
0.0
 11
0.0
 21
-57.5
 31
0.0
  0
LINE
  5
92
330
88
100
AcDbEntity
  8
FORMAT
 62
     0
100
AcDbLine
 10
5.0
 20
0.0
 30
0.0
 11
57.5
 21
0.0
 31
0.0
  0
ENDBLK
  5
8A
330
88
100
AcDbEntity
  8
0
100
AcDbBlockEnd
  0
BLOCK
  5
B3
330
B2
100
AcDbEntity
  8
0
100
AcDbBlockBegin
  2
SW_CENTERMARKSYMBOL_1
 70
     0
 10
0.0
 20
0.0
 30
0.0
  3
SW_CENTERMARKSYMBOL_1
  1

  0
LINE
  5
B5
330
B2
100
AcDbEntity
  8
FORMAT
 62
     0
100
AcDbLine
 10
0.0
 20
0.0
 30
0.0
 11
0.0
 21
2.5
 31
0.0
  0
LINE
  5
B6
330
B2
100
AcDbEntity
  8
FORMAT
 62
     0
100
AcDbLine
 10
0.0
 20
0.0
 30
0.0
 11
-2.5
 21
0.0
 31
0.0
  0
LINE
  5
B7
330
B2
100
AcDbEntity
  8
FORMAT
 62
     0
100
AcDbLine
 10
0.0
 20
0.0
 30
0.0
 11
0.0
 21
-2.5
 31
0.0
  0
LINE
  5
B8
330
B2
100
AcDbEntity
  8
FORMAT
 62
     0
100
AcDbLine
 10
0.0
 20
0.0
 30
0.0
 11
2.5
 21
0.0
 31
0.0
  0
LINE
  5
B9
330
B2
100
AcDbEntity
  8
FORMAT
 62
     0
100
AcDbLine
 10
0.0
 20
5.0
 30
0.0
 11
0.0
 21
34.0
 31
0.0
  0
LINE
  5
BA
330
B2
100
AcDbEntity
  8
FORMAT
 62
     0
100
AcDbLine
 10
-5.0
 20
0.0
 30
0.0
 11
-34.0
 21
0.0
 31
0.0
  0
LINE
  5
BB
330
B2
100
AcDbEntity
  8
FORMAT
 62
     0
100
AcDbLine
 10
0.0
 20
-5.0
 30
0.0
 11
0.0
 21
-34.0
 31
0.0
  0
LINE
  5
BC
330
B2
100
AcDbEntity
  8
FORMAT
 62
     0
100
AcDbLine
 10
5.0
 20
0.0
 30
0.0
 11
34.0
 21
0.0
 31
0.0
  0
ENDBLK
  5
B4
330
B2
100
AcDbEntity
  8
0
100
AcDbBlockEnd
  0
ENDSEC
  0
SECTION
  2
ENTITIES
  0
LINE
  5
83
330
1F
100
AcDbEntity
  8
0
  6
Continuous
 62
     7
370
    25
100
AcDbLine
 10
163.6226642281
 20
83.5029005303
 30
0.0
 11
267.5275510204
 21
83.5029005303
 31
0.0
  0
LINE
  5
84
330
1F
100
AcDbEntity
  8
0
  6
Continuous
 62
     7
370
    25
100
AcDbLine
 10
267.5275510204
 20
146.5029005303
 30
0.0
 11
163.6504172389
 21
146.5029005303
 31
0.0
  0
CIRCLE
  5
85
330
1F
100
AcDbEntity
  8
0
  6
Continuous
 62
     7
370
    25
100
AcDbCircle
 10
118.5275510204
 20
115.0029005303
 30
0.0
 40
45.00000000000001
  0
CIRCLE
  5
86
330
1F
100
AcDbEntity
  8
0
  6
Continuous
 62
     7
370
    25
100
AcDbCircle
 10
118.5275510204
 20
115.0029005303
 30
0.0
 40
54.99999999999999
  0
LINE
  5
87
330
1F
100
AcDbEntity
  8
0
  6
Continuous
 62
     7
370
    25
100
AcDbLine
 10
267.5275510204
 20
146.5029005303
 30
0.0
 11
267.5275510204
 21
83.5029005303
 31
0.0
  0
INSERT
  5
93
330
1F
100
AcDbEntity
  8
FORMAT
100
AcDbBlockReference
  2
SW_CENTERMARKSYMBOL_0
 10
118.5275510204
 20
115.0029005303
 30
0.0
  0
LINE
  5
94
330
1F
100
AcDbEntity
  8
0
  6
Continuous
 62
     7
370
    25
100
AcDbLine
 10
63.5275510204
 20
4.8823255391
 30
0.0
 11
63.5275510204
 21
-322.1176744609
 31
0.0
  0
LINE
  5
95
330
1F
100
AcDbEntity
  8
0
  6
Continuous
 62
     7
370
    25
100
AcDbLine
 10
173.5275510204
 20
-127.1214356794
 30
0.0
 11
173.5275510204
 21
4.8823255391
 31
0.0
  0
LINE
  5
96
330
1F
100
AcDbEntity
  8
0
  6
Continuous
 62
     7
370
    25
100
AcDbLine
 10
173.5275510204
 20
-322.1176744609
 30
0.0
 11
173.5275510204
 21
-190.1176744609
 31
0.0
  0
LINE
  5
97
330
1F
100
AcDbEntity
  8
0
  6
Continuous
 62
     7
370
    25
100
AcDbLine
 10
173.5275510204
 20
-190.1176744609
 30
0.0
 11
267.5275510204
 21
-190.1176744609
 31
0.0
  0
LINE
  5
98
330
1F
100
AcDbEntity
  8
0
  6
Continuous
 62
     7
370
    25
100
AcDbLine
 10
267.5275510204
 20
-127.1176744609
 30
0.0
 11
173.5254121588
 21
-127.1176744609
 31
0.0
  0
LWPOLYLINE
  5
99
330
1F
100
AcDbEntity
  8
0
  6
Continuous
 62
     7
370
    25
100
AcDbPolyline
 90
       25
 70
   128
 43
0.0
 10
173.5254045704
 20
-127.1214356794
 10
173.3348076746
 20
-127.4554315706
 10
172.7434716422
 20
-128.507608887
 10
171.8475945252
 20
-130.1523088502
 10
170.6734229311
 20
-132.4176371075
 10
169.2170843989
 20
-135.4513455733
 10
167.6491503535
 20
-139.1194304107
 10
166.0293976036
 20
-143.6618920069
 10
165.2889458358
 20
-146.2135377432
 10
164.6513523844
 20
-148.8885916538
 10
163.942317456
 20
-153.1632257809
 10
163.6226098613
 20
-157.7152710781
 10
163.7536197785
 20
-162.1739780627
 10
164.3252915393
 20
-166.6602509534
 10
165.2157003907
 20
-170.7434029594
 10
166.3728877764
 20
-174.6309892113
 10
167.8494172923
 20
-178.6150866071
 10
169.4029025929
 20
-182.1878122973
 10
170.9930031171
 20
-185.4481359499
 10
171.7138144205
 20
-186.8317683459
 10
172.3384581177
 20
-187.9922165448
 10
173.0865391067
 20
-189.3411700465
 10
173.4834723234
 20
-190.0406483218
 10
173.5275510204
 20
-190.1176744609
 10
173.5275510204
 20
-190.1176744609
  0
LINE
  5
9A
330
1F
100
AcDbEntity
  8
0
  6
Continuous
 62
     7
370
    25
100
AcDbLine
 10
173.5275510204
 20
-322.1176744609
 30
0.0
 11
63.5275510204
 21
-322.1176744609
 31
0.0
  0
LINE
  5
9B
330
1F
100
AcDbEntity
  8
0
  6
Continuous
 62
     7
370
    25
100
AcDbLine
 10
173.5275510204
 20
4.8823255391
 30
0.0
 11
63.5275510204
 21
4.8823255391
 31
0.0
  0
LINE
  5
9C
330
1F
100
AcDbEntity
  8
0
  6
Continuous
 62
     7
370
    25
100
AcDbLine
 10
267.5275510204
 20
-127.1176744609
 30
0.0
 11
267.5275510204
 21
-190.1176744609
 31
0.0
  0
LINE
  5
9D
330
1F
100
AcDbEntity
  8
0
  6
Continuous
 62
     7
370
    25
100
AcDbLine
 10
173.5275510204
 20
404.5050840704
 30
0.0
 11
173.5275510204
 21
536.5050840704
 31
0.0
  0
LINE
  5
9E
330
1F
100
AcDbEntity
  8
0
  6
Continuous
 62
     7
370
    25
100
AcDbLine
 10
173.5275510204
 20
209.5050840704
 30
0.0
 11
173.5275510204
 21
341.508845289
 31
0.0
  0
LINE
  5
9F
330
1F
100
AcDbEntity
  8
0
  6
Continuous
 62
     7
370
    25
100
AcDbLine
 10
63.5275510204
 20
536.5050840704
 30
0.0
 11
63.5275510204
 21
209.5050840704
 31
0.0
  0
LINE
  5
A0
330
1F
100
AcDbEntity
  8
0
  6
Continuous
 62
     7
370
    25
100
AcDbLine
 10
173.5254121588
 20
341.5050840704
 30
0.0
 11
267.5275510204
 21
341.5050840704
 31
0.0
  0
LINE
  5
A1
330
1F
100
AcDbEntity
  8
0
  6
Continuous
 62
     7
370
    25
100
AcDbLine
 10
267.5275510204
 20
404.5050840704
 30
0.0
 11
173.5275510204
 21
404.5050840704
 31
0.0
  0
SPLINE
  5
A2
330
1F
100
AcDbEntity
  8
0
  6
Continuous
 62
     7
370
    25
100
AcDbSpline
210
0.0
220
0.0
230
1.0
 70
     8
 71
     3
 72
    31
 73
    27
 74
     0
 42
0.000000001
 43
0.00000001
 40
0.0
 40
0.0
 40
0.0
 40
0.0
 40
0.0473968692436279
 40
0.0962901070979776
 40
0.1436591987631408
 40
0.1922350221726786
 40
0.2431049989771671
 40
0.2951768866761058
 40
0.3513493794217846
 40
0.3802496702556117
 40
0.4094172057506443
 40
0.4531468648006449
 40
0.4981086371529006
 40
0.5418607054810772
 40
0.5869061886640158
 40
0.6306651519186639
 40
0.6753758535640977
 40
0.7261699099599448
 40
0.7781462864557369
 40
0.8345130684122714
 40
0.8635293555410596
 40
0.8928116717024994
 40
0.9451358419660969
 40
0.9721784487077773
 40
0.9994923202138136
 40
1.0
 40
1.0
 40
1.0
 40
1.0
 10
173.5275510204079
 20
404.5050840704247
 30
0.0
 10
173.4867249245545
 20
404.4340731224228
 30
0.0
 10
173.403783810408
 20
404.2898093367056
 30
0.0
 10
172.7520636922912
 20
403.1388911645917
 30
0.0
 10
171.7725466767339
 20
401.3476699812646
 30
0.0
 10
170.4997291791763
 20
398.8947396666389
 30
0.0
 10
169.00646910708
 20
395.7759947847242
 30
0.0
 10
167.3741163430034
 20
391.9306760009111
 30
0.0
 10
166.0432152871777
 20
388.1502390863679
 30
0.0
 10
165.0929417787836
 20
384.743532190007
 30
0.0
 10
164.3764024284946
 20
381.5657087308448
 30
0.0
 10
163.7864354834641
 20
377.7093075581035
 30
0.0
 10
163.5384518497412
 20
373.2361045250275
 30
0.0
 10
163.7446228486673
 20
368.7129877784035
 30
0.0
 10
164.3716682760804
 20
364.3565454722421
 30
0.0
 10
165.3434376338323
 20
360.2035338558252
 30
0.0
 10
166.601222822139
 20
356.1845858370733
 30
0.0
 10
168.0855149788044
 20
352.3376040990068
 30
0.0
 10
169.7089329398078
 20
348.7201909541378
 30
0.0
 10
171.0007902620794
 20
346.1396680572043
 30
0.0
 10
171.9203145813055
 20
344.3976269396157
 30
0.0
 10
172.6749042487862
 20
343.0108382168563
 30
0.0
 10
173.216485507379
 20
342.0500942107256
 30
0.0
 10
173.4616154095381
 20
341.6201874189273
 30
0.0
 10
173.5654538796383
 20
341.4386655577228
 30
0.0
 10
173.5261222822262
 20
341.5075876187142
 30
0.0
 10
173.5254045703792
 20
341.5088452889576
 30
0.0
  0
LINE
  5
A3
330
1F
100
AcDbEntity
  8
0
  6
Continuous
 62
     7
370
    25
100
AcDbLine
 10
63.5275510204
 20
536.5050840704
 30
0.0
 11
173.5275510204
 21
536.5050840704
 31
0.0
  0
LINE
  5
A4
330
1F
100
AcDbEntity
  8
0
  6
Continuous
 62
     7
370
    25
100
AcDbLine
 10
63.5275510204
 20
209.5050840704
 30
0.0
 11
173.5275510204
 21
209.5050840704
 31
0.0
  0
LINE
  5
A5
330
1F
100
AcDbEntity
  8
0
  6
Continuous
 62
     7
370
    25
100
AcDbLine
 10
267.5275510204
 20
404.5050840704
 30
0.0
 11
267.5275510204
 21
341.5050840704
 31
0.0
  0
LINE
  5
A6
330
1F
100
AcDbEntity
  8
0
  6
Continuous
 62
     7
370
    25
100
AcDbLine
 10
334.8576331519
 20
60.0029005303
 30
0.0
 11
661.8576331519
 21
60.0029005303
 31
0.0
  0
LINE
  5
A7
330
1F
100
AcDbEntity
  8
0
  6
Continuous
 62
     7
370
    25
100
AcDbLine
 10
661.8576331519
 20
170.0029005303
 30
0.0
 11
334.8576331519
 21
170.0029005303
 31
0.0
  0
LINE
  5
A8
330
1F
100
AcDbEntity
  8
0
  6
Continuous
 62
     7
370
    25
100
AcDbLine
 10
661.8576331519
 20
170.0029005303
 30
0.0
 11
661.8576331519
 21
60.0029005303
 31
0.0
  0
LINE
  5
A9
330
1F
100
AcDbEntity
  8
0
  6
Continuous
 62
     7
370
    25
100
AcDbLine
 10
334.8576331519
 20
170.0029005303
 30
0.0
 11
334.8576331519
 21
60.0029005303
 31
0.0
  0
LINE
  5
AA
330
1F
100
AcDbEntity
  8
0
  6
Continuous
 62
     7
370
    25
100
AcDbLine
 10
-16.7669140698
 20
170.0029005303
 30
0.0
 11
-343.7669140698
 21
170.0029005303
 31
0.0
  0
LINE
  5
AB
330
1F
100
AcDbEntity
  8
0
  6
Continuous
 62
     7
370
    25
100
AcDbLine
 10
-343.7669140698
 20
60.0029005303
 30
0.0
 11
-16.7669140698
 21
60.0029005303
 31
0.0
  0
CIRCLE
  5
AC
330
1F
100
AcDbEntity
  8
0
  6
Continuous
 62
     7
370
    25
100
AcDbCircle
 10
-180.2669140698
 20
115.0029005303
 30
0.0
 40
25.70000000000002
  0
CIRCLE
  5
AD
330
1F
100
AcDbEntity
  8
0
  6
Continuous
 62
     7
370
    25
100
AcDbCircle
 10
-180.2669140698
 20
115.0029005303
 30
0.0
 40
31.5
  0
LINE
  5
AE
330
1F
100
AcDbEntity
  8
0
  6
Continuous
 62
     7
370
    25
100
AcDbLine
 10
-343.7669140698
 20
115.0029005303
 30
0.0
 11
-343.7669140698
 21
170.0029005303
 31
0.0
  0
LINE
  5
AF
330
1F
100
AcDbEntity
  8
0
  6
Continuous
 62
     7
370
    25
100
AcDbLine
 10
-343.7669140698
 20
60.0029005303
 30
0.0
 11
-343.7669140698
 21
115.0029005303
 31
0.0
  0
LINE
  5
B0
330
1F
100
AcDbEntity
  8
0
  6
Continuous
 62
     7
370
    25
100
AcDbLine
 10
-16.7669140698
 20
115.0029005303
 30
0.0
 11
-16.7669140698
 21
170.0029005303
 31
0.0
  0
LINE
  5
B1
330
1F
100
AcDbEntity
  8
0
  6
Continuous
 62
     7
370
    25
100
AcDbLine
 10
-16.7669140698
 20
60.0029005303
 30
0.0
 11
-16.7669140698
 21
115.0029005303
 31
0.0
  0
INSERT
  5
BD
330
1F
100
AcDbEntity
  8
FORMAT
100
AcDbBlockReference
  2
SW_CENTERMARKSYMBOL_1
 10
-180.2669140698
 20
115.0029005303
 30
0.0
  0
LINE
  5
BE
330
1F
100
AcDbEntity
  8
0
  6
Continuous
 62
     7
370
    25
100
AcDbLine
 10
652.2730693861
 20
-190.4280390255
 30
0.0
 11
595.6703757129
 21
-157.751999497
 31
0.0
  0
LINE
  5
BF
330
1F
100
AcDbEntity
  8
0
  6
Continuous
 62
     7
370
    25
100
AcDbLine
 10
532.6652554529
 20
-121.3799177724
 30
0.0
 11
421.0491519381
 21
-56.9453127425
 31
0.0
  0
LINE
  5
C0
330
1F
100
AcDbEntity
  8
0
  6
Continuous
 62
     7
370
    25
100
AcDbLine
 10
366.0536216431
 20
-152.2106876044
 30
0.0
 11
597.2775390911
 21
-285.6934138874
 31
0.0
  0
LINE
  5
C1
330
1F
100
AcDbEntity
  8
0
  6
Continuous
 62
     7
370
    25
100
AcDbLine
 10
560.4657833122
 20
-178.0751780989
 30
0.0
 11
630.2709759504
 21
-137.7774981491
 31
0.0
  0
LINE
  5
C2
330
1F
100
AcDbEntity
  8
0
  6
Continuous
 62
     7
370
    25
100
AcDbLine
 10
598.7735358724
 20
-83.2164198192
 30
0.0
 11
528.9701364924
 21
-123.513064543
 31
0.0
  0
SPLINE
  5
C3
330
1F
100
AcDbEntity
  8
0
  6
Continuous
 62
     7
370
    25
100
AcDbSpline
210
0.0
220
0.0
230
1.0
 70
     8
 71
     3
 72
    24
 73
    20
 74
     0
 42
0.000000001
 43
0.00000001
 40
0.0
 40
0.0
 40
0.0
 40
0.0
 40
0.063160908778951
 40
0.1283158733432255
 40
0.1914397658144011
 40
0.2561717449555071
 40
0.3239609052061624
 40
0.3933517278783288
 40
0.4682070030645287
 40
0.5067194335724976
 40
0.5455879934184887
 40
0.6038619902091743
 40
0.6637778970485816
 40
0.7220817563681065
 40
0.7821092159793517
 40
0.8404222634547369
 40
0.9000035943134157
 40
0.9676915832824825
 40
1.0
 40
1.0
 40
1.0
 40
1.0
 10
525.7803548725143
 20
-136.0097124786019
 30
0.0
 10
525.801698786121
 20
-137.3633775575065
 30
0.0
 10
525.845060462955
 20
-140.1134443341228
 30
0.0
 10
526.1980467926558
 20
-144.6913328246168
 30
0.0
 10
526.7720083118919
 20
-149.463465712639
 30
0.0
 10
527.6064740955622
 20
-154.3644494235675
 30
0.0
 10
528.7558653950338
 20
-159.345626446879
 30
0.0
 10
530.3206688017235
 20
-164.3638885618384
 30
0.0
 10
532.0527517886532
 20
-168.3823560639887
 30
0.0
 10
533.7897134094484
 20
-171.4260691788443
 30
0.0
 10
535.530100769512
 20
-173.9221182690209
 30
0.0
 10
537.8398375512372
 20
-176.4446367614495
 30
0.0
 10
540.8274415661976
 20
-178.6595086510688
 30
0.0
 10
544.1718372942421
 20
-180.1831325359612
 30
0.0
 10
547.6946210112028
 20
-180.9555586979692
 30
0.0
 10
551.3223398900374
 20
-181.0302350326872
 30
0.0
 10
555.0379070724383
 20
-180.3989940719591
 30
0.0
 10
558.1532477051463
 20
-179.3966442067126
 30
0.0
 10
559.863118580503
 20
-178.3326024924045
 30
0.0
 10
560.4155706451033
 20
-177.9888151045014
 30
0.0
  0
SPLINE
  5
C4
330
1F
100
AcDbEntity
  8
0
  6
Continuous
 62
     7
370
    25
100
AcDbSpline
210
0.0
220
0.0
230
1.0
 70
     8
 71
     3
 72
    14
 73
    10
 74
     0
 42
0.000000001
 43
0.00000001
 40
0.0
 40
0.0
 40
0.0
 40
0.0
 40
0.0784131205477468
 40
0.3038545486480886
 40
0.419825873843248
 40
0.5368309319466577
 40
0.7222101794859055
 40
0.9128175989960295
 40
1.0
 40
1.0
 40
1.0
 40
1.0
 10
529.0154025926984
 20
-123.5934690851558
 30
0.0
 10
528.8287663255475
 20
-123.6739282491633
 30
0.0
 10
528.10554196819
 20
-123.985711312933
 30
0.0
 10
527.4289770127648
 20
-125.0812140178293
 30
0.0
 10
526.8055739985297
 20
-126.6085624668192
 30
0.0
 10
526.3542868026119
 20
-128.3126088121716
 30
0.0
 10
525.9795273378764
 20
-130.7630067220007
 30
0.0
 10
525.8001484263968
 20
-133.5409430481128
 30
0.0
 10
525.785083039345
 20
-135.4199874699971
 30
0.0
 10
525.7803548725143
 20
-136.0097124786019
 30
0.0
  0
LWPOLYLINE
  5
C5
330
1F
100
AcDbEntity
  8
0
  6
Continuous
 62
     7
370
    25
100
AcDbPolyline
 90
       90
 70
   128
 43
0.0
 10
432.4422597559
 20
-82.1267770983
 10
432.3453835695
 20
-79.0148158916
 10
432.0552376425
 20
-76.0302091831
 10
431.5732674674
 20
-73.1878261333
 10
430.9018741953
 20
-70.5018273516
 10
430.0444026737
 20
-67.9855943489
 10
429.0051247827
 20
-65.6516628713
 10
427.7892181524
 20
-63.5116604481
 10
426.4027403684
 20
-61.5762484637
 10
424.8525987934
 20
-59.8550690432
 10
423.1465161547
 20
-58.356697016
 10
421.2929920702
 20
-57.0885971962
 10
419.3012607036
 20
-56.0570871932
 10
417.1812447604
 20
-55.267305938
 10
414.9435060535
 20
-54.723188081
 10
412.5991928845
 20
-54.4274443902
 10
410.1599845036
 20
-54.3815482455
 10
407.6380329243
 20
-54.5857282995
 10
405.0459023826
 20
-55.0389673372
 10
402.3965067424
 20
-55.7390073446
 10
399.7030451596
 20
-56.6823607577
 10
396.9789363241
 20
-57.864327837
 10
394.2377516094
 20
-59.2790200822
 10
391.4931474596
 20
-60.9193895676
 10
388.7587973546
 20
-62.777264055
 10
386.0483236891
 20
-64.843387707
 10
383.3752299066
 20
-67.1074671996
 10
380.7528332258
 20
-69.5582230027
 10
378.194198295
 20
-72.1834455741
 10
375.7120721049
 20
-74.970056187
 10
373.3188204832
 20
-77.9041720875
 10
371.0263664891
 20
-80.9711756579
 10
368.8461310131
 20
-84.1557872405
 10
366.7889758787
 20
-87.4421412606
 10
364.8651497292
 20
-90.8138652679
 10
363.0842369698
 20
-94.254161503
 10
361.4551100183
 20
-97.745890583
 10
359.9858851032
 20
-101.2716568893
 10
358.6838818291
 20
-104.8138952315
 10
357.5555867108
 20
-108.3549583564
 10
356.6066208578
 20
-111.8772048657
 10
355.8417119704
 20
-115.3630871043
 10
355.2646707861
 20
-118.7952385824
 10
354.878372095
 20
-122.1565604938
 10
354.6847404178
 20
-125.430306902
 10
354.6847404178
 20
-128.6001681669
 10
354.878372095
 20
-131.6503521992
 10
355.2646707861
 20
-134.5656631356
 10
355.8417119704
 20
-137.3315770435
 10
356.6066208578
 20
-139.9343142789
 10
357.5555867108
 20
-142.360908136
 10
358.6838818291
 20
-144.5992694461
 10
359.9858851032
 20
-146.6382468059
 10
361.4551100183
 20
-148.4676821326
 10
363.0842369698
 20
-150.0784612715
 10
364.8651497292
 20
-151.462559402
 10
366.7889758787
 20
-152.6130810168
 10
368.8461310131
 20
-153.524294275
 10
371.0263664891
 20
-154.1916595581
 10
373.3188204832
 20
-154.6118520858
 10
375.7120721049
 20
-154.78277848
 10
378.194198295
 20
-154.7035871941
 10
380.7528332258
 20
-154.3746727551
 10
383.3752299066
 20
-153.7976737981
 10
386.0483236891
 20
-152.9754649029
 10
388.7587973546
 20
-151.9121422729
 10
391.4931474596
 20
-150.613003328
 10
394.2377516094
 20
-149.0845203129
 10
396.9789363241
 20
-147.3343080533
 10
399.7030451596
 20
-145.3710860185
 10
402.3965067424
 20
-143.204634882
 10
405.0459023826
 20
-140.8457477944
 10
407.6380329243
 20
-138.3061766124
 10
410.1599845036
 20
-135.598573352
 10
412.5991928845
 20
-132.7364271564
 10
414.9435060535
 20
-129.733997094
 10
417.1812447605
 20
-126.6062411203
 10
419.3012607036
 20
-123.3687415582
 10
421.2929920702
 20
-120.0376274678
 10
423.1465161547
 20
-116.6294942919
 10
424.8525987934
 20
-113.1613211785
 10
426.4027403684
 20
-109.6503863915
 10
427.7892181524
 20
-106.1141812316
 10
429.0051247827
 20
-102.5703228949
 10
430.0444026737
 20
-99.0364667055
 10
430.9018741953
 20
-95.530218157
 10
431.5732674674
 20
-92.0690452034
 10
432.0552376425
 20
-88.6701912342
 10
432.3453835695
 20
-85.350589169
 10
432.4422597559
 20
-82.1267770983
  0
LWPOLYLINE
  5
C6
330
1F
100
AcDbEntity
  8
0
  6
Continuous
 62
     7
370
    25
100
AcDbPolyline
 90
       13
 70
   128
 43
0.0
 10
663.6661772039
 20
-215.6095033813
 10
663.5693010175
 20
-212.4975421746
 10
663.2791550905
 20
-209.5129354661
 10
662.7971849154
 20
-206.6705524163
 10
662.1257916433
 20
-203.9845536347
 10
661.2683201217
 20
-201.4683206319
 10
660.2290422307
 20
-199.1343891543
 10
659.0131356004
 20
-196.9943867311
 10
657.6266578164
 20
-195.0589747467
 10
656.0765162414
 20
-193.3377953262
 10
654.3704336027
 20
-191.8394232991
 10
652.5169095182
 20
-190.5713234792
 10
652.2730693861
 20
-190.4280390255
  0
LWPOLYLINE
  5
C7
330
1F
100
AcDbEntity
  8
0
  6
Continuous
 62
     7
370
    25
100
AcDbPolyline
 90
       35
 70
   128
 43
0.0
 10
597.2775390911
 20
-285.6934138874
 10
598.0128933267
 20
-286.0958072998
 10
600.0700484611
 20
-287.007020558
 10
602.2502839371
 20
-287.6743858411
 10
604.5427379312
 20
-288.0945783688
 10
606.9359895529
 20
-288.2655047631
 10
609.418115743
 20
-288.1863134771
 10
611.9767506738
 20
-287.8573990381
 10
614.5991473546
 20
-287.2804000811
 10
617.2722411371
 20
-286.4581911859
 10
619.9827148026
 20
-285.3948685559
 10
622.7170649076
 20
-284.095729611
 10
625.4616690574
 20
-282.5672465959
 10
628.2028537721
 20
-280.8170343363
 10
630.9269626076
 20
-278.8538123015
 10
633.6204241904
 20
-276.687361165
 10
636.2698198306
 20
-274.3284740774
 10
638.8619503723
 20
-271.7889028954
 10
641.3839019516
 20
-269.081299635
 10
643.8231103325
 20
-266.2191534394
 10
646.1674235015
 20
-263.216723377
 10
648.4051622085
 20
-260.0889674033
 10
650.5251781516
 20
-256.8514678413
 10
652.5169095182
 20
-253.5203537509
 10
654.3704336027
 20
-250.1122205749
 10
656.0765162414
 20
-246.6440474615
 10
657.6266578164
 20
-243.1331126745
 10
659.0131356004
 20
-239.5969075146
 10
660.2290422307
 20
-236.0530491779
 10
661.2683201217
 20
-232.5191929885
 10
662.1257916433
 20
-229.01294444
 10
662.7971849154
 20
-225.5517714864
 10
663.2791550905
 20
-222.1529175173
 10
663.5693010175
 20
-218.8333154521
 10
663.6661772039
 20
-215.6095033813
  0
LWPOLYLINE
  5
C8
330
1F
100
AcDbEntity
  8
0
  6
Continuous
 62
     7
370
    25
100
AcDbPolyline
 90
       81
 70
   128
 43
0.0
 10
425.371191944
 20
-86.2088176574
 10
425.2731021041
 20
-83.3825162991
 10
424.9794373406
 20
-80.686892147
 10
424.4920081947
 20
-78.1385646205
 10
423.813819829
 20
-75.7532450063
 10
422.9490535003
 20
-73.5456395928
 10
421.9030407807
 20
-71.5293590016
 10
420.6822306863
 20
-69.716834273
 10
419.2941499174
 20
-68.1192402247
 10
417.7473564535
 20
-66.7464265553
 10
416.0513867906
 20
-65.6068571175
 10
414.2166971457
 20
-64.7075577359
 10
412.2545989906
 20
-64.0540728901
 10
410.1771893128
 20
-63.6504315316
 10
407.9972760338
 20
-63.4991222436
 10
405.7282990439
 20
-63.6010778982
 10
403.3842473407
 20
-63.9556699048
 10
400.9795727825
 20
-64.5607120858
 10
398.5291009875
 20
-65.4124741549
 10
396.0479399292
 20
-66.5057047158
 10
393.5513867906
 20
-67.8336636386
 10
391.0548336521
 20
-69.3881636148
 10
388.5736725938
 20
-71.1596206352
 10
386.1232007988
 20
-73.1371130781
 10
383.7185262405
 20
-75.3084490452
 10
381.3744745373
 20
-77.6602415281
 10
379.1054975474
 20
-80.1779909441
 10
376.9255842684
 20
-82.8461745309
 10
374.8481745906
 20
-85.6483420493
 10
372.8860764355
 20
-88.5672172048
 10
371.0513867906
 20
-91.5848041614
 10
369.3554171278
 20
-94.682498492
 10
367.8086236638
 20
-97.8412018812
 10
366.4205428949
 20
-101.041439872
 10
365.1997328006
 20
-104.2634819331
 10
364.1537200809
 20
-107.4874631038
 10
363.2889537523
 20
-110.693506468
 10
362.6107653866
 20
-113.8618457023
 10
362.1233362406
 20
-116.9729469417
 10
361.8296714772
 20
-120.0076292125
 10
361.7315816372
 20
-122.9471826894
 10
361.8296714772
 20
-125.7734840478
 10
362.1233362406
 20
-128.4691081998
 10
362.6107653866
 20
-131.0174357263
 10
363.2889537523
 20
-133.4027553406
 10
364.1537200809
 20
-135.6103607541
 10
365.1997328006
 20
-137.6266413453
 10
366.4205428949
 20
-139.4391660738
 10
367.8086236638
 20
-141.0367601221
 10
369.3554171278
 20
-142.4095737915
 10
371.0513867906
 20
-143.5491432294
 10
372.8860764355
 20
-144.448442611
 10
374.8481745906
 20
-145.1019274567
 10
376.9255842684
 20
-145.5055688152
 10
379.1054975474
 20
-145.6568781032
 10
381.3744745373
 20
-145.5549224487
 10
383.7185262405
 20
-145.2003304421
 10
386.1232007988
 20
-144.5952882611
 10
388.5736725938
 20
-143.7435261919
 10
391.0548336521
 20
-142.650295631
 10
393.5513867906
 20
-141.3223367083
 10
396.0479399292
 20
-139.7678367321
 10
398.5291009875
 20
-137.9963797117
 10
400.9795727825
 20
-136.0188872687
 10
403.3842473407
 20
-133.8475513016
 10
405.7282990439
 20
-131.4957588187
 10
407.9972760338
 20
-128.9780094027
 10
410.1771893128
 20
-126.309825816
 10
412.2545989906
 20
-123.5076582976
 10
414.2166971457
 20
-120.5887831421
 10
416.0513867906
 20
-117.5711961855
 10
417.7473564535
 20
-114.4735018548
 10
419.2941499174
 20
-111.3147984657
 10
420.6822306863
 20
-108.1145604748
 10
421.9030407807
 20
-104.8925184137
 10
422.9490535003
 20
-101.6685372431
 10
423.813819829
 20
-98.4624938789
 10
424.4920081947
 20
-95.2941546446
 10
424.9794373406
 20
-92.1830534052
 10
425.2731021041
 20
-89.1483711344
 10
425.371191944
 20
-86.2088176574
  0
LWPOLYLINE
  5
C9
330
1F
100
AcDbEntity
  8
0
  6
Continuous
 62
     7
370
    25
100
AcDbPolyline
 90
       61
 70
   128
 43
0.0
 10
632.6949001879
 20
-120.9878032211
 10
632.5953485411
 20
-118.7367931427
 10
632.2977843095
 20
-116.3955057171
 10
631.8054676689
 20
-113.989592579
 10
631.1237925436
 20
-111.5454134165
 10
630.2602275088
 20
-109.0897471677
 10
629.2242339638
 20
-106.6494986261
 10
628.0271624707
 20
-104.2514036654
 10
626.6821283953
 20
-101.9217363156
 10
625.2038682123
 20
-99.6860208999
 10
623.6085780497
 20
-97.5687523842
 10
621.9137362403
 20
-95.5931280054
 10
620.1379118256
 20
-93.7807931176
 10
618.3005611096
 20
-92.1516040411
 10
616.4218144912
 20
-90.7234105124
 10
614.5222559114
 20
-89.5118601187
 10
612.6226973317
 20
-88.5302268595
 10
610.7439507133
 20
-87.7892657143
 10
608.9065999973
 20
-87.2970948085
 10
607.1307755826
 20
-87.0591064695
 10
605.4359337732
 20
-87.0779081473
 10
603.8406436105
 20
-87.3532938468
 10
602.3623834276
 20
-87.8822463847
 10
601.0173493521
 20
-88.6589704462
 10
599.820277859
 20
-89.6749560801
 10
598.784284314
 20
-90.9190719351
 10
597.9207192793
 20
-92.3776872175
 10
597.239044154
 20
-94.0348210331
 10
596.7467275134
 20
-95.872317477
 10
596.4491632817
 20
-97.8700445537
 10
596.3496116349
 20
-100.0061147472
 10
596.4491632817
 20
-102.2571248256
 10
596.7467275134
 20
-104.5984122512
 10
597.239044154
 20
-107.0043253892
 10
597.9207192793
 20
-109.4485045518
 10
598.784284314
 20
-111.9041708006
 10
599.820277859
 20
-114.3444193422
 10
601.0173493521
 20
-116.7425143029
 10
602.3623834276
 20
-119.0721816527
 10
603.8406436105
 20
-121.3078970684
 10
605.4359337732
 20
-123.4251655841
 10
607.1307755826
 20
-125.4007899629
 10
608.9065999973
 20
-127.2131248507
 10
610.7439507133
 20
-128.8423139272
 10
612.6226973317
 20
-130.2705074558
 10
614.5222559114
 20
-131.4820578496
 10
616.4218144912
 20
-132.4636911088
 10
618.3005611096
 20
-133.204652254
 10
620.1379118256
 20
-133.6968231598
 10
621.9137362403
 20
-133.9348114988
 10
623.6085780497
 20
-133.916009821
 10
625.2038682123
 20
-133.6406241215
 10
626.6821283953
 20
-133.1116715836
 10
628.0271624707
 20
-132.334947522
 10
629.2242339638
 20
-131.3189618882
 10
630.2602275088
 20
-130.0748460332
 10
631.1237925436
 20
-128.6162307508
 10
631.8054676689
 20
-126.9590969352
 10
632.2977843095
 20
-125.1216004913
 10
632.5953485411
 20
-123.1238734146
 10
632.6949001879
 20
-120.9878032211
  0
LWPOLYLINE
  5
CA
330
1F
100
AcDbEntity
  8
0
  6
Continuous
 62
     7
370
    25
100
AcDbPolyline
 90
       68
 70
   128
 43
0.0
 10
636.7961195188
 20
-123.3553867453
 10
636.6982477617
 20
-120.890330499
 10
636.4054925908
 20
-118.3339369302
 10
635.9204267491
 20
-115.7086717173
 10
635.2473130128
 20
-113.0376057855
 10
634.3920667294
 20
-110.3442125583
 10
633.3622038341
 20
-107.6521616722
 10
632.1667747991
 20
-104.9851109672
 10
630.8162850976
 20
-102.3664985807
 10
629.3226028818
 20
-99.8193369726
 10
627.6988546846
 20
-97.3660106906
 10
625.9593100637
 20
-95.0280796544
 10
624.1192561996
 20
-92.8260896859
 10
622.1948635519
 20
-90.7793919522
 10
620.2030437524
 20
-88.9059729066
 10
618.1613009851
 20
-87.2222962229
 10
616.0875781588
 20
-85.7431581124
 10
614.0000992244
 20
-84.4815572941
 10
611.9172090217
 20
-83.4485807612
 10
609.8572120647
 20
-82.6533063487
 10
607.8382116808
 20
-82.1027229567
 10
605.8779509179
 20
-81.8016691319
 10
603.9936566181
 20
-81.7527905461
 10
602.2018880275
 20
-81.956516746
 10
600.5183912728
 20
-82.4110573785
 10
598.9579609841
 20
-83.1124179242
 10
597.5343102788
 20
-84.0544348014
 10
596.2599502506
 20
-85.2288295319
 10
595.1460800212
 20
-86.6252814925
 10
594.2024883222
 20
-88.2315186133
 10
593.4374674714
 20
-90.0334252246
 10
592.8577404995
 20
-92.0151661064
 10
592.4684020681
 20
-94.1593256486
 10
592.2728736972
 20
-96.4470608999
 10
592.2728736972
 20
-98.8582671608
 10
592.4684020681
 20
-101.3717546639
 10
592.8577404995
 20
-103.9654347907
 10
593.4374674714
 20
-106.6165141869
 10
594.2024883222
 20
-109.3016950716
 10
595.1460800212
 20
-111.9973799785
 10
596.2599502506
 20
-114.6798791317
 10
597.5343102788
 20
-117.3256186323
 10
598.9579609841
 20
-119.9113476264
 10
600.5183912728
 20
-122.4143426345
 10
602.2018880275
 20
-124.8126072467
 10
603.9936566181
 20
-127.0850654272
 10
605.8779509179
 20
-129.2117467318
 10
607.8382116808
 20
-131.1739618087
 10
609.8572120647
 20
-132.9544666414
 10
611.9172090217
 20
-134.5376140893
 10
614.0000992244
 20
-135.9094913958
 10
616.0875781588
 20
-137.0580424536
 10
618.1613009851
 20
-137.9731737549
 10
620.2030437524
 20
-138.6468430929
 10
622.1948635519
 20
-139.0731302371
 10
624.1192561996
 20
-139.2482889609
 10
625.9593100637
 20
-139.170779963
 10
627.6988546846
 20
-138.8412843954
 10
629.3226028818
 20
-138.2626978769
 10
630.8162850976
 20
-137.4401050467
 10
632.1667747991
 20
-136.3807348801
 10
633.3622038341
 20
-135.0938971602
 10
634.3920667294
 20
-133.5909006633
 10
635.2473130128
 20
-131.8849537765
 10
635.9204267491
 20
-129.9910484224
 10
636.4054925908
 20
-127.9258283094
 10
636.6982477617
 20
-125.7074426661
 10
636.7961195188
 20
-123.3553867453
  0
ENDSEC
  0
SECTION
  2
OBJECTS
  0
DICTIONARY
  5
C
330
0
100
AcDbDictionary
281
     1
  3
ACAD_GROUP
350
D
  3
ACAD_LAYOUT
350
1A
  3
ACAD_MLINESTYLE
350
17
  3
ACAD_PLOTSETTINGS
350
19
  3
ACAD_PLOTSTYLENAME
350
E
  3
ACAD_SCALELIST
350
47
  0
DICTIONARY
  5
D
102
{ACAD_REACTORS
330
C
102
}
330
C
100
AcDbDictionary
281
     1
  0
DICTIONARY
  5
1A
102
{ACAD_REACTORS
330
C
102
}
330
C
100
AcDbDictionary
281
     1
  3
Layout1
350
1E
  3
Layout2
350
26
  3
Model
350
22
  0
DICTIONARY
  5
17
102
{ACAD_REACTORS
330
C
102
}
330
C
100
AcDbDictionary
281
     1
  3
Standard
350
18
  0
DICTIONARY
  5
19
102
{ACAD_REACTORS
330
C
102
}
330
C
100
AcDbDictionary
281
     1
  0
ACDBDICTIONARYWDFLT
  5
E
102
{ACAD_REACTORS
330
C
102
}
330
C
100
AcDbDictionary
281
     1
  3
Normal
350
F
100
AcDbDictionaryWithDefault
340
F
  0
DICTIONARY
  5
47
102
{ACAD_REACTORS
330
C
102
}
330
C
100
AcDbDictionary
281
     1
  3
A0
350
48
  3
A1
350
49
  3
A2
350
4A
  3
A3
350
4B
  3
A4
350
4C
  3
A5
350
4D
  3
A6
350
4E
  3
A7
350
4F
  3
A8
350
50
  3
A9
350
51
  3
B0
350
52
  3
B1
350
53
  3
B2
350
54
  3
B3
350
55
  3
B4
350
56
  3
B5
350
57
  3
B6
350
58
  3
B7
350
59
  3
B8
350
5A
  3
B9
350
5B
  3
C0
350
5C
  3
C1
350
5D
  3
C2
350
5E
  3
C3
350
5F
  3
C4
350
60
  3
C5
350
61
  3
C6
350
62
  3
C7
350
63
  3
C8
350
64
  3
C9
350
65
  3
D0
350
66
  3
D1
350
67
  3
D2
350
68
  0
LAYOUT
  5
1E
102
{ACAD_REACTORS
330
1A
102
}
330
1A
100
AcDbPlotSettings
  1

  2
none_device
  4

  6

 40
0.0
 41
0.0
 42
0.0
 43
0.0
 44
0.0
 45
0.0
 46
0.0
 47
0.0
 48
0.0
 49
0.0
140
0.0
141
0.0
142
1.0
143
1.0
 70
   688
 72
     1
 73
     0
 74
     5
  7

 75
    16
147
1.0
148
0.0
149
0.0
100
AcDbLayout
  1
Layout1
 70
     1
 71
     1
 10
0.0
 20
0.0
 11
420.0
 21
297.0
 12
0.0
 22
0.0
 32
0.0
 14
1.0000000000E+20
 24
1.0000000000E+20
 34
1.0000000000E+20
 15
-1.0000000000E+20
 25
-1.0000000000E+20
 35
-1.0000000000E+20
146
0.0
 13
0.0
 23
0.0
 33
0.0
 16
1.0
 26
0.0
 36
0.0
 17
0.0
 27
1.0
 37
0.0
 76
     0
330
1B
  0
LAYOUT
  5
26
102
{ACAD_REACTORS
330
1A
102
}
330
1A
100
AcDbPlotSettings
  1

  2
none_device
  4

  6

 40
0.0
 41
0.0
 42
0.0
 43
0.0
 44
0.0
 45
0.0
 46
0.0
 47
0.0
 48
0.0
 49
0.0
140
0.0
141
0.0
142
1.0
143
1.0
 70
   688
 72
     1
 73
     0
 74
     5
  7

 75
    16
147
1.0
148
0.0
149
0.0
100
AcDbLayout
  1
Layout2
 70
     1
 71
     2
 10
0.0
 20
0.0
 11
0.0
 21
0.0
 12
0.0
 22
0.0
 32
0.0
 14
0.0
 24
0.0
 34
0.0
 15
0.0
 25
0.0
 35
0.0
146
0.0
 13
0.0
 23
0.0
 33
0.0
 16
1.0
 26
0.0
 36
0.0
 17
0.0
 27
1.0
 37
0.0
 76
     0
330
23
  0
LAYOUT
  5
22
102
{ACAD_REACTORS
330
1A
102
}
330
1A
100
AcDbPlotSettings
  1

  2
none_device
  4
Letter_(8.50_x_11.00_Inches)
  6

 40
6.35
 41
6.35
 42
6.35000508
 43
6.35000508
 44
215.9
 45
279.4
 46
0.0
 47
0.0
 48
0.0
 49
0.0
140
0.0
141
0.0
142
1.0
143
1.0
 70
  1712
 72
     1
 73
     0
 74
     0
  7

 75
     0
147
1.0
148
0.0
149
0.0
100
AcDbLayout
  1
Model
 70
     1
 71
     0
 10
0.0
 20
0.0
 11
279.4
 21
215.9
 12
0.0
 22
0.0
 32
0.0
 14
0.0
 24
0.0
 34
0.0
 15
279.4
 25
215.9
 35
0.0
146
0.0
 13
0.0
 23
0.0
 33
0.0
 16
1.0
 26
0.0
 36
0.0
 17
0.0
 27
1.0
 37
0.0
 76
     0
330
1F
331
29
  0
MLINESTYLE
  5
18
102
{ACAD_REACTORS
330
17
102
}
330
17
100
AcDbMlineStyle
  2
Standard
 70
     0
  3

 62
   256
 51
90.0
 52
90.0
 71
     2
 49
0.5
 62
   256
  6
BYLAYER
 49
-0.5
 62
   256
  6
BYLAYER
  0
ACDBPLACEHOLDER
  5
F
102
{ACAD_REACTORS
330
E
102
}
330
E
  0
SCALE
  5
48
102
{ACAD_REACTORS
330
47
102
}
330
47
100
AcDbScale
 70
     0
300
1:1
140
1.0
141
1.0
290
     1
  0
SCALE
  5
49
102
{ACAD_REACTORS
330
47
102
}
330
47
100
AcDbScale
 70
     0
300
1:2
140
1.0
141
2.0
290
     0
  0
SCALE
  5
4A
102
{ACAD_REACTORS
330
47
102
}
330
47
100
AcDbScale
 70
     0
300
1:4
140
1.0
141
4.0
290
     0
  0
SCALE
  5
4B
102
{ACAD_REACTORS
330
47
102
}
330
47
100
AcDbScale
 70
     0
300
1:5
140
1.0
141
5.0
290
     0
  0
SCALE
  5
4C
102
{ACAD_REACTORS
330
47
102
}
330
47
100
AcDbScale
 70
     0
300
1:8
140
1.0
141
8.0
290
     0
  0
SCALE
  5
4D
102
{ACAD_REACTORS
330
47
102
}
330
47
100
AcDbScale
 70
     0
300
1:10
140
1.0
141
10.0
290
     0
  0
SCALE
  5
4E
102
{ACAD_REACTORS
330
47
102
}
330
47
100
AcDbScale
 70
     0
300
1:16
140
1.0
141
16.0
290
     0
  0
SCALE
  5
4F
102
{ACAD_REACTORS
330
47
102
}
330
47
100
AcDbScale
 70
     0
300
1:20
140
1.0
141
20.0
290
     0
  0
SCALE
  5
50
102
{ACAD_REACTORS
330
47
102
}
330
47
100
AcDbScale
 70
     0
300
1:30
140
1.0
141
30.0
290
     0
  0
SCALE
  5
51
102
{ACAD_REACTORS
330
47
102
}
330
47
100
AcDbScale
 70
     0
300
1:40
140
1.0
141
40.0
290
     0
  0
SCALE
  5
52
102
{ACAD_REACTORS
330
47
102
}
330
47
100
AcDbScale
 70
     0
300
1:50
140
1.0
141
50.0
290
     0
  0
SCALE
  5
53
102
{ACAD_REACTORS
330
47
102
}
330
47
100
AcDbScale
 70
     0
300
1:100
140
1.0
141
100.0
290
     0
  0
SCALE
  5
54
102
{ACAD_REACTORS
330
47
102
}
330
47
100
AcDbScale
 70
     0
300
2:1
140
2.0
141
1.0
290
     0
  0
SCALE
  5
55
102
{ACAD_REACTORS
330
47
102
}
330
47
100
AcDbScale
 70
     0
300
4:1
140
4.0
141
1.0
290
     0
  0
SCALE
  5
56
102
{ACAD_REACTORS
330
47
102
}
330
47
100
AcDbScale
 70
     0
300
8:1
140
8.0
141
1.0
290
     0
  0
SCALE
  5
57
102
{ACAD_REACTORS
330
47
102
}
330
47
100
AcDbScale
 70
     0
300
10:1
140
10.0
141
1.0
290
     0
  0
SCALE
  5
58
102
{ACAD_REACTORS
330
47
102
}
330
47
100
AcDbScale
 70
     0
300
100:1
140
100.0
141
1.0
290
     0
  0
SCALE
  5
59
102
{ACAD_REACTORS
330
47
102
}
330
47
100
AcDbScale
 70
     0
300
1/128" = 1'-0"
140
0.0078125
141
12.0
290
     0
  0
SCALE
  5
5A
102
{ACAD_REACTORS
330
47
102
}
330
47
100
AcDbScale
 70
     0
300
1/64" = 1'-0"
140
0.015625
141
12.0
290
     0
  0
SCALE
  5
5B
102
{ACAD_REACTORS
330
47
102
}
330
47
100
AcDbScale
 70
     0
300
1/32" = 1'-0"
140
0.03125
141
12.0
290
     0
  0
SCALE
  5
5C
102
{ACAD_REACTORS
330
47
102
}
330
47
100
AcDbScale
 70
     0
300
1/16" = 1'-0"
140
0.0625
141
12.0
290
     0
  0
SCALE
  5
5D
102
{ACAD_REACTORS
330
47
102
}
330
47
100
AcDbScale
 70
     0
300
3/32" = 1'-0"
140
0.09375
141
12.0
290
     0
  0
SCALE
  5
5E
102
{ACAD_REACTORS
330
47
102
}
330
47
100
AcDbScale
 70
     0
300
1/8" = 1'-0"
140
0.125
141
12.0
290
     0
  0
SCALE
  5
5F
102
{ACAD_REACTORS
330
47
102
}
330
47
100
AcDbScale
 70
     0
300
3/16" = 1'-0"
140
0.1875
141
12.0
290
     0
  0
SCALE
  5
60
102
{ACAD_REACTORS
330
47
102
}
330
47
100
AcDbScale
 70
     0
300
1/4" = 1'-0"
140
0.25
141
12.0
290
     0
  0
SCALE
  5
61
102
{ACAD_REACTORS
330
47
102
}
330
47
100
AcDbScale
 70
     0
300
3/8" = 1'-0"
140
0.375
141
12.0
290
     0
  0
SCALE
  5
62
102
{ACAD_REACTORS
330
47
102
}
330
47
100
AcDbScale
 70
     0
300
1/2" = 1'-0"
140
0.5
141
12.0
290
     0
  0
SCALE
  5
63
102
{ACAD_REACTORS
330
47
102
}
330
47
100
AcDbScale
 70
     0
300
3/4" = 1'-0"
140
0.75
141
12.0
290
     0
  0
SCALE
  5
64
102
{ACAD_REACTORS
330
47
102
}
330
47
100
AcDbScale
 70
     0
300
1" = 1'-0"
140
1.0
141
12.0
290
     0
  0
SCALE
  5
65
102
{ACAD_REACTORS
330
47
102
}
330
47
100
AcDbScale
 70
     0
300
1-1/2" = 1'-0"
140
1.5
141
12.0
290
     0
  0
SCALE
  5
66
102
{ACAD_REACTORS
330
47
102
}
330
47
100
AcDbScale
 70
     0
300
3" = 1'-0"
140
3.0
141
12.0
290
     0
  0
SCALE
  5
67
102
{ACAD_REACTORS
330
47
102
}
330
47
100
AcDbScale
 70
     0
300
6" = 1'-0"
140
6.0
141
12.0
290
     0
  0
SCALE
  5
68
102
{ACAD_REACTORS
330
47
102
}
330
47
100
AcDbScale
 70
     0
300
1'-0" = 1'-0"
140
12.0
141
12.0
290
     0
  0
ENDSEC
  0
EOF
